Queer As Folk中文站 | 同志亦凡人中文站 | QAF中文站

侍卫官 发表于 2006-4-7 22:51

[资料]《断背山》配乐乐谱~

em36~

[b][color=Red]Opening [/color][/b]

e|-5p4---5p4--------------------5p4---5p4--------------------------0-------------0--------<12>-----------|
B|-------------5---0----------------------5--0-----------------0---0-------------0---<12>------<12>------|
G|-------------------4/6----4------------------4/6----4----6---0---1----6----4---1-----------------------|
D|-------------------------------------------------------------0---2-------------2-----------------------|
A|-------------------0-------------------------0----------5----2---2---5---------2------------------<7>--|
E|-------------------------0-------------------------0---------3---0--------3----0-----------------------|

                                                              (s) (s)           (s)


[b][color=Red]Brokeback Mountain 1 [/color][/b]

e|-----------------------------------------------------------------------------------|
B|--0------3-0----------8\--0----------------0------3-0----------8\---0--------------|
G|-------------4/6------------------2-------------------4/6-------------------2------|
D|-----------------------------------------------------------------------------------|
A|-------------0-------------------0--------------------0--------------------0-------|
E|--3----------------------3-----------------3----------------------3----------------|


e|------------------------------------------------------------------------------------------------------------|
B|--10-----8-7-------------------------------0---------------------------------------------------3-----3------|
G|--------------6-------4-6-7----------------0------2-0--0h2-----------------------------------2---2----------|
D|-0------------------------7-------7------0-0----------0--------2/4-0-2-----2/4-0---------0-0-------0--------|
A|-------------0------------9-------5--------2-------------------------3*----------2*-------------------------|
E|--------------------------7-------5--------3---------------------------------------3*-----------------------|

                           (s)     (s)      (s)                >--exaggerated sliding--<  >---fade out---<


e|----------------------------------------------------------------------3-----------------------------------------|
B|---10---13-10---12-------10----------7------7-----------1-----------0--------3------3-----5------3--------1-----|
G|--10-----------12-------10----12-9--7-----7---7--------2----------0---------------0---0------------------2------|
D|-10-----------12-------10----------0----0-------0-----3---------0---------------3-----------------------3-------|
A|----------------------------------------------------------------------------1------------3------1---------------|
E|-----------------------------------------------------------1--3----------3-----------------------------1--------|

                                                            (T)


No guitar during extended symphony-only part...


e|------------------------------------------------------------------------------------------------|
B|----0-----3-0----------8\----0------------------0-----3-0--------8\----0------------------------|
G|---0-----------4h6----------0-------2----------0-----------6----------0-------2-----------------|
D|--0------------------------0------------------0----------------------0-----------------<12>-----|
A|--------------0--------------------0----------------------0------------------0------------------|
E|-3------------------------3------------------3----------------------3---------------------------|


[b][color=Red]Riding Horses [/color][/b]

e|--------------|
B|--------------|
G|-2---2-2---2--|  (this backing repeats gently throughout entire piece)
D|---5-----5----|
A|--------------|
E|--------------|


e|--------------------------------------------------|
B|--7------5------7------0------3-------------0-----|
G|-------------------------------------2------------| (x2)
D|-0-------------0----------------------------------|
A|-----------------------------2--------------------|
E|--------3-------------3-------------2------3------|


e|---------------|
B|--1------7-----|
G|-----3---------|
D|--------0------|
A|-1-------------|
E|---------------|


[b][color=Red]The Wings [/color][/b]

Chords in use:


   G6     C   Cadd9  Dm    A/D    G

e-----------1-----0--------------|
B--0-1-3-----------------1-1--0--|
G--------------------------------|
D-----------0--------------------|
A----0-2----------3--------------|
E--3--------------------------3--|


e-----------------------------|
B-0--1-0----------------------|
G----------2------0----0--0---|
D----------0------------------|
A----0------------3-----------|
E-3----3------------------3---|


[b][color=Red]The song[/color][/b]

Note: Chords written above tab indicate those strummed by backing guitar.


e|-------1---0-----------------------------------|
B|-0-1-3-3---1---1-1-0---0-1-0-------------------|
G|-0-0-0-2---0-------0-----------2---0---0-0-----|
D|------------------------------0----------0-----|
A|---0-2-----3-------------0---0-----3-----------|
E|-3---------------3-----3---3-------------3-----|

                               (fast)


         Dm  C       G6   G6 C Cadd9 Dm  C     G6   G6 C Cadd9 Dm  C       G6

e|-------1---0-----------------------1---0---------------------1---0------------|
B|-0-1-3-3---1---1-1-0----0--1-3-----3---1---1-0----0--1-3-----3---1---1-1-0----|
G|-0-0-0-2---0-------0----0--0-0-----2---0-----0----0--0-0-----2---0-------0----|
D|-0----------------------------------------------------------------------------|
A|-2-0-2-----3---------------0-2---------3-------------0-2---------3------------|
E|-3---------------3------3------------------3------3--------------------3------|

  (s)


   G6 C G6 A/D   C     G6

e|-------------------------|
B|-0--1-0------------------|
G|-----------2---0---0-0---| (x2)
D|----------0----------0---|
A|----0----0-----3---------|
E|-3----3--------------3---|

         (fast)


Then just strumming the following chords as song lifts:

G6  C  Cadd9  Dm   C  G6  (x3, but with alternate timing for change to final G6 chord)

G6  C  G6     A/D  C  G6

G6  C  G6     A/D  C  G


[b][color=Red]snow[/color][/b]
Artist: GUstavo Santaolalla
Album : Brokeback Mountain Original Soundtrack
Tabbed by: E. Trak ([email]handburglar@gmail.com[/email])

You'll have to listen to the song to learn the rhythm, but it's generally the same throughout the song.

/ indicates slide up

(s) indicates strum using thumb


E-----------------------------------------------------------------------------------------|
B---0-----------0-----------0-----------0---------0-----------0-----------0-----------0---|
G------0-----0-----0-----0-----0-----0-----0---0-----0-----0-----0-----0-----0-----0------|
D--------0-0---------0-0---------0-0---------0---------0-0---------0-0---------0-0--------|
A-----------------------------------------------------------------------------------------|
E---3-----------3-----------3-----------3---------3-----------3-----------3-----------3---|


E---0----------0-----------------------------------|
B-------------------------0----------0-------------|
G-----0-0-0-0----0-0-0-0----0-0-0-0----0-0-0-0-----| (2x)
D--------------------------------------------------|
A---3----------3-----------------------------------|
E-------------------------3----------3-------------|


E---2-----------2--------------------------------------------------------------|--------------------------|
B------0-2-2-0-----0-2-2-0----4--------0-----------3/--6-----------6-----------|---0-----------0----------|
G-----------------------------------------0-----0---------0-----0-----0---0----|------0-----0-----0---0---|
D---0-----------0------------5--------------0-0-------------6-6---------6------|--------0-0---------0-----|
A--------------------------------------------------2/--5-----------5-----------|--------------------------|
E--------------------------------------3---------------------------------------|---3-----------3----------|

                           (fast)


E---0----------0-----------------------------------|
B-------------------------0----------0-------------|
G-----0-0-0-0----0-0-0-0----0-0-0-0----0-0-0-0-----| (2x)
D--------------------------------------------------|
A---3----------3-----------------------------------|
E-------------------------3----------3-------------|


E---2-----------2--------------------------------------------------------------------------------------|
B------0-2-2-0-----0-2-2-0----4--------0-----------3/--6-----------6-----------6-----------6-----------|
G-----------------------------------------0-----0---------0-----0-----0-----0-----0-----0-----0---0----|
D---0-----------0------------5--------------0-0-------------6-6---------6-6---------6-6---------6------|
A--------------------------------------------------2/--5-----------5-----------5-----------5-----------|
E--------------------------------------3---------------------------------------------------------------|

                           (fast)

E-------------------------------------------|
B---0-----------0-----------0-----------0---|
G------0-----0-----0-----0-----0-----0--0---|
D--------0-0---------0-0---------0-0----0---|
A---------------------------------------5---|
E---3-----------3-----------3-----------3---|

398032739 发表于 2009-8-13 15:01

完全看不懂,但谢谢楼主

JE`Ver 发表于 2009-9-26 11:38

这是什么乐器的乐谱?告诉我,我会找人翻译出来,然后他们变成我的小提琴练习曲

ww592 发表于 2009-10-11 04:04

确实看不懂,楼主解释解释

围墙和蔷薇 发表于 2009-10-21 22:42

虽然不懂音乐,但这部电影的吉他,真的很绝

kurt1020 发表于 2009-10-30 01:29

这 。。。太专业了吧。。咱们没学过声乐 看不懂。。。

stein 发表于 2009-10-30 18:34

当年的奥斯卡颁奖典礼,在演奏断背山时,听了很激动,最后也是谱曲的阿根廷人得了奖。

verazero 发表于 2009-12-11 01:54

電影配樂跟悲傷的劇情很符合,很動聽

find 发表于 2009-12-16 19:14

神了,想要这个很久了,踏破铁鞋无觅处啊。

find 发表于 2009-12-16 19:14

过年回去练练,兴奋。

vanishing 发表于 2009-12-19 17:27

资源很棒
可惜不会弹吉他,本想自学但是手弹不了
这电影的配乐不低了
the wings响起时,眼泪再也控制不住了

cowboy 发表于 2009-12-19 21:53

这些音乐简直就是跟电影绝配~~

ocher 发表于 2009-12-20 22:41

那首吉他曲,真是百听不厌!

michaelmedia 发表于 2010-1-3 19:06

这部电影的吉他,真的很绝
谢谢

毛小蛇 发表于 2010-2-27 01:13

超喜欢里面那几段吉他曲,狠空

qusorig 发表于 2010-3-5 10:05

摸不着头脑的路过

feedingfrenzy 发表于 2010-4-4 13:23

这样的吉他谱看不懂啊~~~~

Fun风筝 发表于 2010-4-26 07:10

这个吉他谱。真抽象诶。。
虽然本人正在学吉他。ms看不太懂。。。

靖哥哥 发表于 2010-5-1 21:36

莪估计莪技术不够.. 弹不出来,只弹出了两个调

JOQY 发表于 2010-12-6 20:30

旋律很好

3118554 发表于 2010-12-10 09:11

旋律很好

美食美客 发表于 2010-12-19 23:37

楼主在哪儿弄的啊?如此强悍!

zoeaimebj 发表于 2011-1-10 17:08

(⊙o⊙)…额~看不懂 不过还是谢谢分享~
BTW,电影的配乐 实在经典!

小魚甜蜜 发表于 2011-1-23 22:01

這幾首一聽就想哭
很贊的配樂

mooney 发表于 2011-2-21 15:29

哪天弹来试试~

爱情捷径 发表于 2011-3-23 13:14

完全看不懂

safia 发表于 2011-3-23 19:54

天书一样的乐谱,请宽恕对音乐愚盾的我路过~

Scream 发表于 2011-4-30 21:24

Gustavo·Santaolalla就TMD是个天才···

Markus 发表于 2011-7-9 12:19

{:5_305:}好强大 连吉他乐谱都发出来了

neelin 发表于 2011-7-22 15:43

这个是什么乐器的乐谱啊??

meihui1230 发表于 2011-7-23 12:12

好强的楼主,乐谱都弄来了

Lesbian 发表于 2011-7-31 08:27

[color=YellowGreen]
虽然看不懂,但是我很喜欢电影里的音乐。
很唯美...[/color]

风过水无痕 发表于 2011-9-9 03:00

居然是吉他谱~~~还以为LL能找到五线谱滴说~~~~

skygazer 发表于 2012-8-11 09:23

[i=s] 本帖最后由 skygazer 于 2012-8-11 10:00 编辑 [/i]

真的能弹出来!谢谢分享!

JellyIsFish 发表于 2012-8-20 20:49

想要原声带

AndyLK 发表于 2012-9-21 01:32

碉堡了,音表专业的我完全看不懂,麻烦楼主翻译

蓝大木 发表于 2012-9-21 15:37

这是吉他伴奏谱吗?

页: [1]

Powered by 同志亦凡人中文站手机版   © 2001-2016

  • QAF三国群英传信息联盟发布平台
  •